Песни под гитару - тексты, аккорды, слова, табулатуры, видеоуроки

Российские группы и исполнители

Иностранные группы и исполнители

Новые песни и аккорды под гитару:

Reel Big Fish - Nothin

5-02-2013, 10:54
    c  f  g  e  c1  f1  a
[e:--3--1--3--7--8---8---5-
b:--5--1--3--9--8---10--7-
g:--5--2--4--9--9---10--7-
d:--5--3--5--9--10--10--7-
a:--3--3--5--7--10--8---5-
e:-----1--3-----8---------]
    a a7 dbm d  e  b
[e:--5--5--6--5--7--7-
B:--5--5--5--7--9--7-
G:--6--6--6--7--9--8-
D:--7--5--6--7--9--9-
A:--7--7--4--5--7--9-
E:--5--5-----------7-

Reel Big Fish - Ill Never Be

5-02-2013, 10:54
    g  a  bm d
[e:--3--5--7--5-
B:--3--5--7--7-
G:--4--6--7--7-
D:--5--7--9--7-
A:--5--7--9--5-
E:--3--5--7----]
   f  gm a  Bb c   dm        Bb1 c1
|--1--3--5--6--8---5--| |--1---1--|
|--1--3--5--6--8---6--| |--3---5--|
|--2--3--6--7--9---7--| |--3---5--|
|--3--5--7--8--10--7--| |--3---5--|
|--3--5--7--8--10--5--| |--1---3--|
|--1--3--5--6--8------| |---------|